Rambler's Top100
Подписка на: новости христианской музыки

About A Burning Fire просмотров: 7272+1

Исполнитель: Blindside Альбом: About A Burning Fire Дорожка: 12
Язык: Английский

Версия для печати

I thought about fire in the sky
I thought about fire
I thought about love burning in your eye
I thought about fire

I thought about fire in the sky
I thought about fire
I thought about love burning in your eye
I thought about fire

It hurts
That drops of fire would fall so precise
And how everything else would lose its meaning
What a beautiful
What a painful surprise
There is no peace outside if there is nothing within
It hurts
But like coming home
Once dried up
I guess this is what you get
When a heart expands

I thought about fire in the sky
I thought about fire
I thought about love burning in your eye
I thought about fire

Love is destructive
For the ego
And your voice is the only thing
That speaks rebelliously in this world of claiming your own
There is no peace outside if there's nothing within
Love is addictive
For the spirit
And your voice whispers with a roar
That fire rises up, refills
Place the right king on the throne

I thought about fire in the sky
I thought about fire
I thought about love burning in your eye
I thought about fire

I thought about fire in the sky
I thought about fire
I thought about love burning in your eye
I thought about fire

I thought about a burning fire
I thought about a love in fire
I thought about your love, yeah
I thought about your love

I thought about a burning fire
I thought about a love in fire
I thought about your love
I thought about your love

I thought about a burning fire
I thought about a love in fire
I thought about your love
I thought about your love

I thought about a burning fire
I thought about a burning fire
I thought about your love
I thought about your love

I thought about a love
I thought about love


-------------------------------------------------------------------------------

Tabbed by: Jon Schmidt

Email: Iceman2001X@hotmail.com


Tuning: CGCFAD


Intro/Chorus


D|---------------------------------------------------------------------------|

A|---------------------------------------------------------------------------|

F|---------------------------------------------------------------------------|

C|1--4-3---------------------------------------------------------------------|

G|1--4-3---------------------------------------------------------------------|

C|1--4-3---------------------------------------------------------------------|

    Repeat 8X 


Verses


D|---------------------------------------------------------------------------|

A|---------------------------------------------------------------------------|

F|---------------------------------------------------------------------------|

C|4---4-5-4-4---4-5-3-4-5-4--------------------------------------------------|

G|4---4-5-4-4---4-5-3-4-5-4--------------------------------------------------|

C|4---4-5-4-4---4-5-3-4-5-4--------------------------------------------------|

  Repeat 8X



D|---------------------------------------------------------------------------|

A|---------------------------------------------------------------------------|

F|--------------------15-15---13-13---12-13-14-------------------------------|

C|1-1----4-4----3------x--x----x--x----x--x--x-------------------------------|

G|1-1----4-4----3-----13-13---11-11---10-11-12-------------------------------|

C|1-1----4-4----3------------------------------------------------------------|

  Ending


---------------------------

This song is in Drop-D tuning. Many thnx to Luke (sorefingers) for helping me 
out with this tab (or it wouldn't soudn right at all.)

part 1:
E                            
B                            
G                            
D-------1-------4----3------
A-------1-------4----3------
E-------1-------4----3------


part 2:
E                                 
B                                 
G                                 
D-------1----1-1-1-1-----4----3--
A-------1----1-1-1-1-----4----3--
E-------1----1-1-1-1-----4----3--

part 3:
E                                                                          
B                                                                          
G                                                                          
D----6----6-6-6----9---6-6----6-6-6----9---6-6-----6-6-6----9---6-6----9--
A----6----6-6-6----9---6-6----6-6-6----9---6-6-----6-6-6----9---6-6----9--
E----6----6-6-6----9---6-6----6-6-6----9---6-6-----6-6-6----9---6-6----9--

E                             
B                             
G                             
D--10-8-9------6---6-6-6--9-6
A--10-8-9------6---6-6-6--9-6
E--10-8-9------6---6-6-6--9-6


order:

part1 5x
part2 5x
part3 1x
part2 4x
part3 1x
part1 4x
part2 4x 

there is a little bit more that I didn't get but I don't think its too hard.

Варианты:
1 2 3 4

Варианты:
1 2

Варианты:
1 2 3 4 5

Версия для печати

Оцените качество текста и аккордов:

Комментарии

Время: 2009-08-02 08:01:05
Имя: bogdan
MP3 формате на почту вышлите эту песни пожалуста? СПС.
Время: 2008-12-19 18:36:49
Имя: Марк
Класная песня!!!!
Время: 2007-06-23 06:19:23
Имя: Lana
proslushat i perepisat muziku
bezplatno

Добавить комментарий к песне "About A Burning Fire":

Имя:
Текст:



 
Каталог песен по: Электронные книги для христиан

ТОП:

Цифры:

Исполнителей: 114
Текстов песен: 1801,
из них с аккордами: 1198
Комментариев: 5773

Наши друзья:


Pekлaмные ccылku:

© 2004—2009
Song.lutsk.ua
Использование материалов сайта в печатных или электронных изданиях допустимо только при наличии активной гипер-ссылки на этот сайт!
Правовая информация