Rambler's Top100
Подписка на: новости христианской музыки

Eye Of The Storm просмотров: 6404+1

Исполнитель: Blindside Альбом: About A Burning Fire Дорожка: 1
Подобрал (прислал): Adam K
Язык: Английский

Версия для печати

I think I've stayed for the last time, goodbye
Hope is so much closer to beauty than sorrow
I think I'll leave and leave self pity to die
Reflection is always brighter than shadow

Please come closer
Cause I don't even touch you anymore
Please see I'm walking in to the eye of the storm
And I'll still come out loving you even more

Love is in the air tonight
So just breathe

You made sure the atmosphere was thick tonight
So this is where it begins and where it ends
With a crack in a dark sky piercing light

Please come closer
Cause my heart doesn't touch yours anymore
Please see I'm walking into the eye of the storm
And I'll still come out loving you even more

Love is in the air tonight so just breathe
Breathe my spirit breathe
Love is in the air tonight so just breathe
Breathe my spirit breathe

leave, leave now and don't look back
leave, leave now and don't you look back

Please come closer
Cause I don't even touch you anymore

Please see I'm walking in to the eye of the storm
And I'll still come out loving you even more

Please come closer
Cause my heart doesn't touch yours anymore

Please see I'm walking in to the eye of the storm
And I'll still come out loving you even more

Drop C# Tuning C#G#C#F#A#D#

Verse
A#[-5-----------------5-------7-]
F#[-5-5h75------------5-------7-]
C#[-5-----3h53-0--8-5-3-7-3-8-5-]
G#[-3----------0--8-5---7-3-8---]x2
C#[-3----------0--8-5---7-3-8---]

Pre-Chorus
F#[----4----]
C#[-2------2]

Chorus
F#[-5-4-------5-4-------------5-4-------5-4---]
C#[-5-5-2s02--5-5---------999-5-5-2s02--5-5-7-]
G#[-3-2-2s02--3-2---555777----3-2-2s02--3-2-7-]
C#[-----2s02-----555--------------2s02------7-]

Verse 
Pre-Chorus
Chorus

Bridge
F#[----4-----0----4-5--0-1-0----4444----4-----]
C#[-2-----2----2-------------22------2-----2--]

Chorus 2
F#[-5-4-------5-4-------------5-4-------5-4------------]
C#[-5-5-2s02--5-5---------999-5-5-2s02--5-5-7777775555-]
G#[-3-2-2s02--3-2---555777----3-2-2s02--3-2-7777775555-]
C#[-----2s02-----555--------------2s02------7777775555-]
P.M.                                        ...........

F#[-5-4-------5-4-------------5-4-------5-4---]
C#[-5-5-2s02--5-5---------999-5-5-2s02--5-5-7-]
G#[-3-2-2s02--3-2---555777----3-2-2s02--3-2-7-]
C#[-----2s02-----555--------------2s02------7-]



Версия для печати

Оцените качество текста и аккордов:

Добавить комментарий к песне "Eye Of The Storm":

Имя:
Текст:



 
Каталог песен по: Электронные книги для христиан

ТОП:

Цифры:

Исполнителей: 114
Текстов песен: 1801,
из них с аккордами: 1198
Комментариев: 5773

Наши друзья:


Pekлaмные ccылku:

© 2004—2009
Song.lutsk.ua
Использование материалов сайта в печатных или электронных изданиях допустимо только при наличии активной гипер-ссылки на этот сайт!
Правовая информация