Rambler's Top100
Подписка на: новости христианской музыки

Направляй просмотров: 8454+1

Исполнитель: ЛППЛ Альбом: Линия по производству лейкопластыря Дорожка: 5
Автор слов: Носач Сергей (ЛППЛ)
Автор музыки: Носач Сергей (ЛППЛ)
Подобрал (прислал): Jenya Klavishnikov
Тема: Молитвенные, Путь веры
Язык: Русский

Версия для печати

Intro solo:

   e|---------------------|-----------------|----------------------------
(B)H|-8-7-5-3------------|-8-7-5-3-------|-8-7-8-10-12-13-12-10-8--12-13-12-10-
   G|----------4-5-4-2-4-|---------4/5-7-|---------------------------------------------4/5-7-

На второй гитаре играется что-то вроде следующего (на вступлении и первом куплете):
H|-----3-|-------3-|-----3-|-------3-
G|----0--|-----0---|----0--|-----0---
D|--4----|---4-----|--4----|---4-----
A|-------|--3------|-------|--5------
E|-0-----|---------|-3-----|---------
(Кстати, если это так (а я почти уверен в этом), то тогда Липкие передрали эту гитарную партию у Delirious, песня Obsession ("Cutting Edge"), только у Delirious бас идет от ноты h-a-g-e, а у ЛППЛ e-c-g-d)

Аккорды на песню:
Em C  |  G D 

Em     C       G       D 
Много дел и забот окружает меня
Em    C          G         D 
Но Иисус - Ты дороже всех дел для меня
Em        C       G       D 
Мне бы сбросить мыслей печаль и вдаль
Em     C         G         D 
О, Господь, Ты меня направляй, направляй

             Em C G D 
    Направляй....

Там где радость присутствия снова и снова
Там где нового больше, чем два или три лишних слова
Где Тови берега - суть живая вода
Там где Твой Ханаан, Ты направь меня туда

    Направь туда...


Варианты:
1 2 3 4

Варианты:
1 2 3 4 5

Варианты:
1 2 3 4 5

Варианты:
1 2 3 4

Версия для печати

Оцените качество текста и аккордов:

Комментарии

Время: 2012-03-05 15:38:10
Имя: VaLera
Вот так правильней!!!))))Кстати,кто может подборы в табулатуре выкладывать????Прошу по-мо-ги-те!!!Если кто-то прочтет это сообщение и сжалится пишите сюда
Время: 2012-03-05 15:30:57
Имя: VaLera
Verses:
E|-------------------------------------------------------------------------|
B|---------------3----------------3---------------3--------------3---------|
G|-----------0----------------0---------------0--------------0-------------|
D|------4----------------2---------------0--------------2------------------|
A|--------------------3-------------------------------5--------------------|
E|----0-------------------------------3------------------------------------|

Добавить комментарий к песне "Направляй":

Имя:
Текст:



 
Каталог песен по: Электронные книги для христиан

ТОП:

Цифры:

Исполнителей: 114
Текстов песен: 1801,
из них с аккордами: 1198
Комментариев: 5773

Наши друзья:


Pekлaмные ccылku:

© 2004—2009
Song.lutsk.ua
Использование материалов сайта в печатных или электронных изданиях допустимо только при наличии активной гипер-ссылки на этот сайт!
Правовая информация