Rambler's Top100
Подписка на: новости христианской музыки

Поклич Ісуса просмотров: 7081+1

Второе название: Мій Господь
Исполнитель: Він знає Альбом: Мій Бог Дорожка: 4
Тема: Евангелизационные
Язык: Украинский

Версия для печати

 интро:

E-|----3p2-0-|----5---|----5-0-|
B-|--0-------|------5-|--------|
G-|----------|--------|--------|
D-|2---------|--------|--------|
A-|----------|--4-----|--7-----|
E-|----------|5-------|8-------|


|3---2---|----3p2-0-|----5---|
|3-----3-|--0-------|--------|
|X-------|----------|--------|
|0-------|2---------|--------|
|--------|----------|--4---2-|
|--------|----------|5-------|


|----0-2-|--------|
|------4-|----4p5-|
|------2-|----2---|
|--2---4-|----4---|
|3-----2-|----2---|
|--------|--------|

|----3p2-0-|----5---|----5-0-|
|--0-------|------5-|--------|
|----------|--------|--------|
|2---------|--------|--------|
|----------|--4-----|--7-----|
|----------|5-------|8-------|


|3---2---|----3p2-0-|----5---|
|3-----3-|--0-------|--------|
|X-------|----------|--------|
|0-------|2---------|--------|
|--------|----------|--4---2-|
|--------|----------|5-------|


|----0-2-|--------|
|------4-|--------|
|------2-|--------|
|--2---4-|--------|
|3-----2-|--------|
|--------|--------|


Am          C 
Мій Господь - вірний Бог
Em                 D 
І оперте серце в Ньому.
Am      C/G                   Em 
Подивись, в світі цім все крихке,
           B 
Летить до долу.

Am        C 
То сліпий, то глухий
Em                    D 
Всіх старається звільнити -
Am           C 
В тому й річ, що самі
         Em                B 
Давно сидять в тій самій клітці.


C      G    D Em 
Ти поклич Ісуса,
C     G       D    G 
Ти повір в Його любов.
C      G     D  Em 
І прийде спасіння,
       C/G         B 
Лиш пусти Ісуса в серце!


Em     A   C    D 
Ти поклич, о, Ісуса
Em    A       C    B 
Ти повір в його любов
Em     A  C      D 
І прийде, о, спасіння
Em     A    C      B 
Лиш пусти Ісуса в серце


Em  A     C    D 
Ти... поклич Ісуса
       Em  A   C      B 
Лиш пусти... Ісуса в серце
Em  A     C    D 
Ти... поклич Ісуса
       Em  A   C      B 
Лиш пусти... Ісуса в серце

Все життя, всі надії і мрії
Я віддав лише Одному,
Тому, Хто помер в позорі
І воскрес в великій славі.

Я піду по землі,
Хоч каміння ранить ноги.
Всім скажу, закричу,
Що Ісус простив гріхи всі!


конец:

E-|----3p2-0-|5-------|
B-|--0-------|5-------|
G-|----------|X-------|
D-|2---------|X-------|
A-|----------|4-------|
E-|----------|5-------|


Варианты:
1 2 3 4

Варианты:
1 2 3 4 5

Варианты:
1 2 3 4

Варианты:
1 2 3 4

Варианты:
1 2

Варианты:
1 2 3 4 5

Варианты:
1 2 3 4

Версия для печати

Оцените качество текста и аккордов:

Комментарии

Время: 2011-09-12 21:43:00
Имя: БальтазарXIII
??Я не зрозунів як грати:|----0-2-|--------|
|------4-|----4p5-|...і далі...?????
Время: 2007-12-14 12:26:51
Имя: марина мелитополь ЕХБ
вообще супер!!! спасибо вам большое!!!давно искала ету песню!вот нашла!!
Время: 2007-12-14 12:21:38
Имя: marina
вообще нетакой текст полностью
Время: 2007-10-23 00:14:36
Имя: Борис, Белгород
Мой Господь верный Бог
И опора сердца в нём
Посмотри этот мир весь в грехах
Летит всё вниз

Кто слепой, кто глухой
Всех старается освободить
Об этом речь что все они
Давно сидят в той самой клетке.

Позови Иисуса (Позови)
И поверь в его любовь (И даст тебе он жизнь)
И придет спасенье
Лишь пусти Иисуса в сердце.

Позови, о, Иисуса
Ты поверь в Его любовь для людей
И придет спасенье
Лишь пусти Иисуса в сердце.

Ты… Услышь Иисуса
Лишь пусти… Иисуса в сердце
Ты… Услышь Иисуса
Лишь пусти… Иисуса в сердце

Мою жизнь, и надежды
Я отдал лишь одному
Тому кто в позоре умер и воскрес
В великой славе

Я пойду по земле
Хоть мне камни ранят ноги
Всем скажу закричу
Что Иисус, простил грехи все.


Перевод не полностью дословный.
Время: 2007-01-10 23:05:04
Имя: Юрец- Мелитополь ЕХБ
Спасибо огромное за этот сайт и подборки к песням!!!! Супер!
Время: 2005-05-29 18:48:39
Имя: admin
Спасиб, большое ;)
Время: 2005-05-28 23:01:42
Имя: кто-то
[изменения внесены в песню]
admin

Добавить комментарий к песне "Поклич Ісуса":

Имя:
Текст:



 
Каталог песен по: Электронные книги для христиан

ТОП:

Цифры:

Исполнителей: 114
Текстов песен: 1801,
из них с аккордами: 1198
Комментариев: 5773

Наши друзья:


Pekлaмные ccылku:

© 2004—2009
Song.lutsk.ua
Использование материалов сайта в печатных или электронных изданиях допустимо только при наличии активной гипер-ссылки на этот сайт!
Правовая информация