Rambler's Top100
Подписка на: новости христианской музыки

Уличные монстры просмотров: 6911+1

Исполнитель: Drozdы Альбом: Слепая война
Тема: Ободряющие, Утешение
Язык: Русский

Версия для печати

Ebm                            Bbm  
Я услышу, как только Мне понять?
Ebm                         Bbm 
Я увижу, но сможешь ли ты?
Ebm                              Bbm  
Спи спокойно, тебе снится твой дом.
Ebm                          Bbm 
Спи, не бойся, Я буду с тобой!

    Gb                            Bbm  
    Этими мечтами осветим пути,
    Gb                             Bbm  
    Этими руками спасемся, но боль. Е-е!
    Gb                          Bbm  
    Падают дождями тени твои,
    Gb                        Bbm        Bbm  
    Это понимая, просто спи.

Путь без крови – это все миф.
Нету боли, значит ты мертв.
Спи спокойно, тебе снится твой дом.
Спи, не бойся, Я буду с тобой! Е - ха!

От земли до неба подняли кресты,
Разрывали тело, но не свое.
Грязными руками вырвали мечты.
А ведь это были - я и ты. 


e|-----------6--8------------6---8--------------------------------
b|----------------------------------9----------------11---13---9--
g|-8---6-------------8---6-------------8---10---11----------------
d|----------------------------------------------------------------
a|----------------------------------------------------------------
e|----------------------------------------------------------------
  Ebm     Bb     Ebm    Bb       Ebm      Bb                       

e|-----------6--8-------
b|--------------------9-
g|--8---6---------------
d|----------------------
a|----------------------
e|----------------------
  Ebm      Bb            


Спи спокойно, тебе снится твой дом.
Спи, не бойся, Я буду с тобой!

Этими мечтами осветим пути,
Этими руками спасемся, но боль. Е-е!
Падают дождями тени твои,
Это понимая, просто спи.

Варианты:
1

Варианты:
1

Варианты:
1

Варианты:
1

Версия для печати

Оцените качество текста и аккордов:

Комментарии

Время: 2010-12-05 21:04:45
Имя: TARAS
трек СОН
http://www.youtube.com/watch?v=dcJx3UwzZ1c&feature=related
Время: 2007-03-16 15:45:39
Имя: vit
а причём здесь Уличные монстры? чё-то перепутали...

Добавить комментарий к песне "Уличные монстры":

Имя:
Текст:



 
Каталог песен по: Электронные книги для христиан

ТОП:

Цифры:

Исполнителей: 114
Текстов песен: 1801,
из них с аккордами: 1198
Комментариев: 5773

Наши друзья:


Pekлaмные ccылku:

© 2004—2009
Song.lutsk.ua
Использование материалов сайта в печатных или электронных изданиях допустимо только при наличии активной гипер-ссылки на этот сайт!
Правовая информация