Rambler's Top100
Подписка на: новости христианской музыки

Иногда просмотров: 7526+1

Исполнитель: Дружки Альбом: Октябрь 10 Дорожка: 1
Автор слов: Георгий Алексеев
Автор музыки: Дружки
Тема: Любовь
Язык: Русский

Версия для печати

Riff-1:
Иногда я стараюсь тебя любить
Riff 2                          Riff 3
Но любовь не могу я тебе отдать
Hm            G 
Больше, чем дала её мать
Hm              G                   Riff 1 
Больше, чем дала её мать в детстве мне.

Riff-1:
Иногда я пытаюсь тебя понять
Riff 2                          Riff 3
Но понять не могу я тебя никак
Hm              G 
Как отец понимал меня
Hm               G        Riff 1 
Как отец понимал меня тогда

             D                      G      D     G 
    Мой раскатистый крик за отца и мать
                 D                      G     D     G 
    Я в этом мире с пеленок - жить и умирать
            D                      G             D     G 
    И когда дьявол бьет, то в глаз, то в бровь

               D             G 
    То, что держит меня. О - о.
               D             G 
    То, что держит меня. О - о.
               D             G 
    То, что держит меня...
                        [instrumental]
    Это - Божья любовь.


Instrumental: Hm | D | Hm | D ||


Riff-1:
Посмотри, я такой же слепой как ты
Riff 2                          Riff 3
И, наверно, с такой же больной душой
Hm                A               G 
И сражаюсь я только с самим собой
Hm                A             Riff 1 
И поле битвы - сердце мое, в ночи.


Я укроюсь в лучах, теплой синеве
Riff 2                               Riff 3
Дом совью, как гнездо, при речной траве.
Hm                A               G 
Ты придешь в лучах солнца, в ночном дожде
Hm                A              D 
Мою тихую боль, Ты возьмешь Себе.


Instrumental: Hm | D | Hm | D || A | E | G | D ||


[Riff 1:]

[-------------------|-------------------|-------------------|-------------------]
[-----------3-------|-----------3-------|-----------3-------|-------------------]
[------2---------2--|------2---------2--|------2---------2--|------2---------2--]
[-0-----------------|-4-----------------|-2-----------------|-4---------2-------]
[-------------------|-------------------|-------------------|-------------------]
[-------------------|-------------------|-------------------|-------------------]


[Riff-2:]

[-------------------|-------------------|-------------------|---------------]
[-----------3-------|-----------3-------|-----------3-------|---------------]
[------2---------2--|------2---------2--|------2---------2--|---------------]
[-0-----------------|-4-----------------|-2-----------------|-4/5-----------]
[-------------------|-------------------|-------------------|--------7-----]
[-------------------|-------------------|-------------------|---------------]


[Riff-3:

[-------------------|-------------------|-------------------|----------------]
[-----------3-------|-----------3-------|-----------3-------|----------------]
[------2---------2--|------2---------2--|------2---------2--|----------------]
[-0-----------------|-4-----------------|-2-----------------|-4/5---4--------]
[-------------------|-------------------|-------------------|------------2---]
[-------------------|-------------------|-------------------|----------------]


Варианты:
1 2 3

Варианты:
1 2 3 4 5

Варианты:
1 2 3 4

Варианты:
1 2 3 4

Версия для печати

Оцените качество текста и аккордов:

Добавить комментарий к песне "Иногда":

Имя:
Текст:



 
Каталог песен по:

ТОП:

Цифры:

Исполнителей: 114
Текстов песен: 1801,
из них с аккордами: 1198
Комментариев: 5773
© 2004—2020
Song.lutsk.ua
Использование материалов сайта в печатных или электронных изданиях допустимо только при наличии активной гипер-ссылки на этот сайт!
Правовая информация