Rambler's Top100
Подписка на: новости христианской музыки

С Тобою рядом просмотров: 6898+1

Исполнитель: Hillsong (Киев, Украина) Альбом: Пожар Дорожка: 11
Автор слов: Вера Касевич, Роман Касевич
Автор музыки: Вера Касевич, Роман Касевич
Подобрал (прислал): Rudik
Тема: Прославление, Новая Жизнь
Язык: Русский

Версия для печати

[Intro solo:]

[- C -------------- | Cmaj7 ----------- | Am ------------  | F | H - C | F |]

[------------------|-------------------|-------------------|-----------------]
[------------------|-------------------|-------------------|-----------------]
[------------------|-------------------|-------------------|-----------------]
[--5-5-5-5-5-5-5-5-|--5-5-5-5-5-5-5-5--|--2-2-2-2-2-2-2-2--|--3-3-3-3-3-3-3-3-]
[--3-3-3-3-3-3-3-3-|--2-2-2-2-2-2-2-2--|--0-0-0-0-0-0-0-0--|-----------------]
[------------------|-------------------|-------------------|-----------------]


[H -------- C ------ | F]

[--------------------|------------------]
[--------------------|------------------]
[--------------------|------------------]
[--------------------|--3-3-3-3-3-3-3-3-]
[--2-2-2---3-3-3-3-3-|------------------]
[--------------------|------------------]


C          F    C 
Из ямы меня Ты взял
C          F    C 
Крепкой рукой поднял
                 F   C   G   C 
Нет никого сильне - е Те - бя.

C          F    C 
Чтобы не сделал я
C           F     C 
Ты будешь любить меня
                 F   C   G   C 
Нет на земле родне - е Те - бя.

         C         G 
    Ты всё для меня
               Am      F 
    Я знаю, что никогда
              C      G     Am   F 
    Не отвернусь я от Тебя.

         C         G 
    Ты всё для меня
               Am      F 
    Нет в мире лучше Тебя
              C      G     Am   F 
    Хочу остаться навсегда.

        C       G      Am 
    Всегда, всегда, всегда.
    F            C   G   Am   F 
    Я с Тобою рядом.
               C    G   Am   F 
    С Тобою рядом.

C       G     Am   F 
Ты со мною рядом
     G       C        F 
Всегда, всегда, всегда.

Варианты:
1 2 3 4 5

Варианты:
1 2 3

Варианты:
1 2 3 4 5

Варианты:
1 2 3 4

Версия для печати

Оцените качество текста и аккордов:

Примечания:
2003 Hillsong Ukraine

Комментарии

Время: 2008-10-28 15:28:59
Имя: валерия
песня супер

Добавить комментарий к песне "С Тобою рядом":

Имя:
Текст:



 
Каталог песен по: Электронные книги для христиан

ТОП:

Цифры:

Исполнителей: 114
Текстов песен: 1801,
из них с аккордами: 1198
Комментариев: 5773

Наши друзья:


Pekлaмные ccылku:

© 2004—2009
Song.lutsk.ua
Использование материалов сайта в печатных или электронных изданиях допустимо только при наличии активной гипер-ссылки на этот сайт!
Правовая информация