Rambler's Top100
Подписка на: новости христианской музыки

Пожар просмотров: 9783+1

Исполнитель: Hillsong (Киев, Украина) Альбом: Пожар Дорожка: 9
Автор слов: Вера Касевич, Роман Касевич
Автор музыки: Вера Касевич, Роман Касевич
Подобрал (прислал): Rudik
Тема: Свобода, Путь веры
Язык: Русский

Версия для печати

[Intro:]

[Am             C             F             Dm] 

[-------------|------------|-------------|---------------]
[-------------|------------|-------------|---------7-----]
[-------------|------------|-------------|-----7---------]
[----------7--|---------5--|----------3--|-5-------------]
[------7------|-----7------|------3------|---------------]
[--5----------|--8---------|--1----------|---------------]


Am   C      F         Dm      Am 
Отдам всю жизнь, мой Бог, Тебе...
          C            F    Dm      Am 
Ведь за грех мой Ты заплатил на кресте
       C     F       Dm      Am 
На третий день воскрес и теперь...
       C      F      Dm     Am   intro  
Вся жизнь моя в Твоей руке.

Тобой живу я каждый день...
Твой Дух Святой всегда во мне
Горит огонь в душе моей...
Я всем скажу о любви Твоей.

    C                G 
    Чем ближе к Тебе...
    Am              F 
    Горю всё сильнее...
    C                G 
    Всей жизнью моей...
                 Am   F 
    Стремлюсь к Тебе.


[RAP: (играется под Intro)]

И не нужно мне дыханье моё
Если внутри меня тлеет черный пепел.
Я не хочу влюблять себя день за днём
Отдавая за миг наслаждения вечность.

Пусть внутри меня горит Твой крест
Ты свет, Ты любовь, Ты внутри меня есть
Зажгись во мне, гори во мне
И пусть Твой пожар внутри меня видят все.


Чем ближе к Тебе...
Горю всё сильнее...
Всей жизнью моей...
Стремлюсь к Тебе.


[End solo:]

[-12----10-----8----7-------12----10-----8----5-----]
[-12----10----10----8-------12----10----10----5-----]
[---------------------------------------------------]
[---------------------------------------------------]
[---------------------------------------------------]
[---------------------------------------------------]

Варианты:
1 2 3 4 5

Варианты:
1 2 3

Варианты:
1 2 3 4

Варианты:
1 2 3 4

Варианты:
1 2 3 4 5

Версия для печати

Оцените качество текста и аккордов:

Примечания:
2003 Hillsong Ukraine

Комментарии

Время: 2012-06-23 09:32:38
Имя: Толик
а есть более точное соло?

Время: 2010-06-17 19:12:50
Имя: Виталий
это не левое это самое то
Время: 2009-08-12 08:12:42
Имя: Дима
----------------------------------
----------------------------------
----------------------------------
------7-------5--------0----3-----
----7-----5-7--------3---3-5------
--5---------------1---------------

----------------------------------
----------------------------------
----------------------------------
------7-------5--------0----3-0---
----7-----5-7--------3---3-5------
--5---------------1---------------
Время: 2008-10-11 08:12:42
Имя: Антон
мне нравится.
если бы гитар подностроить,и струну
заменить то мне понравилось ещё
больше!=)
Время: 2007-01-30 12:50:57
Имя: Александр
Вот это интро более точное:

----------------------------------
----------------------------------
-----------------------------5----
------7------5--------0----3------
----7------5--------3---/5--------
--5------5--------1---------------

----------------------------------
----------------------------------
-----------------------------5----
------7------5--------0----3---3--
----7------5--------3---/5--------
--5------5--------1---------------
Время: 2007-01-28 04:39:28
Имя: Roman
intro normalnoe est u kogo? a to eto levoe kakoeto

Добавить комментарий к песне "Пожар":

Имя:
Текст:



 
Каталог песен по: Электронные книги для христиан

ТОП:

Цифры:

Исполнителей: 114
Текстов песен: 1801,
из них с аккордами: 1198
Комментариев: 5773

Наши друзья:


Pekлaмные ccылku:

© 2004—2009
Song.lutsk.ua
Использование материалов сайта в печатных или электронных изданиях допустимо только при наличии активной гипер-ссылки на этот сайт!
Правовая информация